bass tab

Published on January 2017 | Categories: Documents | Downloads: 132 | Comments: 0 | Views: 402
of 10
Download PDF   Embed   Report

Comments

Content

Tame Impala ///// Mind Mischief ///// Lonerism

Bass Tab

Chorus/Main riff. [0:24]
G||----------------------------------------------------|
D||---------11h13-11-----------------------------------|
A||--9-11\-----------11p9h11-9---------------9----9-11-|
E||--------------------------------------9h11-9h11-----|

G||-------------------------------------------------|
D||---11h13-11--------------------------------------|
A||------------11--13--9---------------9----9-11----|
E||--------------------------------9h11-9h11--------|

G||----------------------------------------------|
D||---11h13-11-----------------------------------|
A||------------11p9h11-9---------------9----9-11-|
E||--------------------------------9h11-9h11-----|

G||-------------------------------------------------|
D||---11h13-11--------------------------------------|
A||------------11--13--9---------------9----9-11----|
E||--------------------------------9h11-9h11--------|

[1:12]
G||----------------------------------------------------|
D||---------11h13-11-----------------------------------|
A||--9-11\-----------11p9h11-9---------------9----9-11-|
E||--------------------------------------9h11-9h11-----|

G||-------------------------------------------------|
D||---11h13-11--------------------------------------|
A||------------11--13--9---------------9----9-11----|
E||--------------------------------9h11-9h11--------|

G||-------------------------------------------|
D||---11h13-11--------------------------------|
A||------------11---9---------------9----9-11-|
E||-----------------------------9h11-9h11-----|

G||-----------------------------------------|
D||---11h13-11------------------------------|
A||------------11--13--9---------------9----|
E||--------------------------------9h11-----|

[1:59]
G||-------------------------------------------------|
D||---------11h13-11--------------------------------|
A||--9-11\-----------11---9---------------9----9-11-|
E||-----------------------------------9h11-9h11-----|

G||-------------------------------------------------|
D||---11h13-11--------------------------------------|
A||------------11--13--9---------------9----9-11----|
E||--------------------------------9h11-9h11--------|

G||-------------------------------------------------|
D||---------11h13-11--------------------------------|
A||--9-11\-----------11---9---------------9----9-11-|
E||-----------------------------------9h11-9h11-----|

G||-----------------------------------|
D||---11h13-11------------------------|
A||------------11--13--9--------------|
E||-----------------------------------|

G||-------------------------------------------------|
D||---------11h13-11--------------------------------|
A||--9-11\-----------11---9---------------9----9-11-|
E||-----------------------------------9h11-9h11-----|

G||-------------------------------------------------|
D||---11h13-11--------------------------------------|
A||------------11--13--9---------------9----9-11----|
E||--------------------------------9h11-9h11--------|

G||-------------------------------------------------|

D||---------11h13-11--------------------------------|
A||--9-11\-----------11---9---------------9----9-11-|
E||-----------------------------------9h11-9h11-----|

G||-----------------------------------------|
D||---11h13-11------------------------------|
A||------------11--13--9---------------9----|
E||--------------------------------9h11-----|

G||-----------------------------|
D||--9--9--99-9---8--8--88-8--8-|
A||-----------------------------|
E||-----------------------------|

G||-------------------------------------|
D||-9--9--11h13-11-9--8--8--88-8--8-----|
A||-------------------------------------|
E||-------------------------------------|

G||-----------------------------|
D||--9--9--99-9---8--8--88-8--8-|
A||-----------------------------|
E||-----------------------------|

G||----------------------------|
D||--9--9--9p8h9p8h9p6---------|

A||-----------------------8----|
E||----------------------------|

G||-------------------------------------------------|
D||---------11h13-11--------------------------------|
A||--9-11\-----------11---9---------------9----9-11-|
E||-----------------------------------9h11-9h11-----|

G||-------------------------------------------------|
D||---11h13-11--------------------------------------|
A||------------11--13--9---------------9----9-11----|
E||--------------------------------9h11-9h11--------|

G||-------------------------------------------------|
D||---------11h13-11--------------------------------|
A||--9-11\-----------11---9---------------9----9-11-|
E||-----------------------------------9h11-9h11-----|

G||-----------------------------------|
D||---11h13-11------------------------|
A||------------11--13--9--------------|
E||-----------------------------------|

[3:38]
G||-----------------------------|
D||--9--9--99-9---8--8--88-8--8-|

A||-----------------------------|
E||-----------------------------|

G||-------------------------------------|
D||-9--9--11h13-11-9--8--8--88-8--8-----|
A||-------------------------------------|
E||-------------------------------------|

G||-----------------------------|
D||--9--9--99-9---8--8--88-8--8-|
A||-----------------------------|
E||-----------------------------|

G||----------------------------|
D||--9--9--9p8h9p8h9p6---------|
A||-----------------------8----|
E||----------------------------|

G||-----------------------------|
D||--9--9--99-9---8--8--88-8--8-|
A||-----------------------------|
E||-----------------------------|

G||-------------------------------------|
D||-9--9--11h13-11-9--8--8--88-8--8-----|
A||-------------------------------------|
E||-------------------------------------|

G||-----------------------------|
D||--9--9--99-9---8--8--88-8--8-|
A||-----------------------------|
E||-----------------------------|

G||--------13-------------------|
D||--11h13-----11h13-11---------|
A||---------------------11---9--|
E||-----------------------------|

Tame Impala ///// Endors Toi ///// Lonerism

Bass Tab

[0:33]
G||--------------------------------|
D||--------------------------------|
A||------11-/15------13--------11--|
E||-11----------13--------11-------|

[0:44]
G||------------------------------------------|

D||------------------------------------------|
A||-10-------------11-/15-15---13--------11--|
E||------13---11--------------------11-------|

[0:59]
G||------------------------------------------------|
D||------------------------------------------------|
A||-10-------------11-/15------13---11-10---13-11--|
E||------13---11----------13-----------------------|

[1:14]
G||---------------------------------------------|
D||---------------------------------------------|
A||-10---13--------11-------------13--------11--|
E||-----------11--------11---13--------11-------|

[1:29] -Soothing repeat… …and it works like a charm. But I
G||------------------------------------------|
D||------------------------------------------|
A||-10-------------11-/15------13--------11--|
E||------13---11----------13--------11-------|

[1:44] -won't be deprived… …go to sleep you'll be fine. In the
G||------------------------------------------|
D||------------------------------------------|
A||-10-------------11-/15------13---10---11--|
E||------13---11----------13-----------------|

[1:59] -morning you'll find, real life was such a grind.
G||-----------12-12---10-10\------------10--12--------|
D||--------12-----------------------------------------|
A||-10-10----------------------------13--------11-11--|
E||----------------------------11-11------------------|
-Off I go day is done and a new ones just begun.
G||----------10-12-15---------------------------------|
D||-------12-------------------13-13-------12-13------|
A||-------------------13-13----------10-11------------|
E||-13-13---------------------------------------------|

[2:14]
G||-----------12-12---10-10\------------10--12--------|
D||--------12-----------------------------------------|
A||-10-10----------------------------13--------11-11--|
E||----------------------------11-11------------------|

G||----------10-12-15---------------------------------|
D||-------12------------------------------------------|
A||-------------------13-13----10-10-------10-11--11--|
E||-13-13----------------------------11-13------------|

[2:29]
G||-----------12-12---10-10\------------10--12--------|

D||--------12-----------------------------------------|
A||-10-10----------------------------13--------11-11--|
E||----------------------------11-11------------------|

G||----------10-12-15----------------------------13-13--|
D||-------12-------------------13-13-------12-13--------|
A||-------------------13-13----------10-11--------------|
E||-13-13-----------------------------------------------|

[2:44]
G||-----------12-12---10-10\------------10--12--------|
D||--------12-----------------------------------------|
A||-10-10----------------------------13--------11-11--|
E||----------------------------11-11------------------|

G||----------10-12-15----------------------------13-13-----------------|
D||-------12-------------------13-13-------12-13-----------------------|
A||-------------------13-13----------10-11-------------11h13p11\10-10--|
E||-13-13--------------------------------------------------------------|

Sponsor Documents

Or use your account on DocShare.tips

Hide

Forgot your password?

Or register your new account on DocShare.tips

Hide

Lost your password? Please enter your email address. You will receive a link to create a new password.

Back to log-in

Close